ISO-10303-21;
HEADER;
FILE_DESCRIPTION (( 'STEP AP203' ),
    '1' );
FILE_NAME ('Q-AZHWP-12.7-488-M.STEP',
    '2020-12-22T09:07:13',
    ( '' ),
    ( '' ),
    'SwSTEP 2.0',
    'SolidWorks 2020',
    '' );
FILE_SCHEMA (( 'CONFIG_CONTROL_DESIGN' ));
ENDSEC;

DATA;
#1 = FACE_OUTER_BOUND ( 'NONE', #74, .T. ) ;
#2 = CARTESIAN_POINT ( 'NONE',  ( -2.999999999999999556, 0.000000000000000000, 0.000000000000000000 ) ) ;
#3 = CIRCLE ( 'NONE', #95, 12.69999999999999929 ) ;
#4 = APPROVAL_PERSON_ORGANIZATION ( #34, #189, #56 ) ;
#5 = DIRECTION ( 'NONE',  ( 1.000000000000000000, 0.000000000000000000, 0.000000000000000000 ) ) ;
#6 = CARTESIAN_POINT ( 'NONE',  ( -1.614212418857619014, 0.000000000000000000, 0.000000000000000000 ) ) ;
#7 = CYLINDRICAL_SURFACE ( 'NONE', #99, 12.69999999999999929 ) ;
#8 = DIRECTION ( 'NONE',  ( 0.000000000000000000, 0.000000000000000000, 1.000000000000000000 ) ) ;
#9 = CARTESIAN_POINT ( 'NONE',  ( -2.999999999999999556, 7.776507174585692163E-16, -6.349999999999999645 ) ) ;
#10 =( LENGTH_UNIT ( ) NAMED_UNIT ( * ) SI_UNIT ( .MILLI., .METRE. ) );
#11 = DIRECTION ( 'NONE',  ( -1.000000000000000000, -0.000000000000000000, -0.000000000000000000 ) ) ;
#12 = LINE ( 'NONE', #140, #244 ) ;
#13 = DIRECTION ( 'NONE',  ( 0.000000000000000000, 0.000000000000000000, 1.000000000000000000 ) ) ;
#14 = EDGE_CURVE ( 'NONE', #251, #151, #221, .T. ) ;
#15 = DIRECTION ( 'NONE',  ( 0.000000000000000000, 0.000000000000000000, 1.000000000000000000 ) ) ;
#16 = CLOSED_SHELL ( 'NONE', ( #292, #120, #29, #265, #49, #259, #94, #213, #61, #281 ) ) ;
#17 = VECTOR ( 'NONE', #321, 1000.000000000000000 ) ;
#18 = EDGE_CURVE ( 'NONE', #334, #121, #138, .T. ) ;
#19 = AXIS2_PLACEMENT_3D ( 'NONE', #2, #312, #169 ) ;
#20 = EDGE_LOOP ( 'NONE', ( #218, #47, #173, #215 ) ) ;
#21 = CALENDAR_DATE ( 2020, 22, 12 ) ;
#22 = VERTEX_POINT ( 'NONE', #255 ) ;
#23 = PERSON_AND_ORGANIZATION ( #308, #164 ) ;
#24 = EDGE_CURVE ( 'NONE', #168, #106, #142, .T. ) ;
#25 = EDGE_LOOP ( 'NONE', ( #247, #71, #145, #329 ) ) ;
#26 = DIRECTION ( 'NONE',  ( -1.000000000000000000, -0.000000000000000000, -0.000000000000000000 ) ) ;
#27 = VERTEX_POINT ( 'NONE', #110 ) ;
#28 = DIRECTION ( 'NONE',  ( -1.000000000000000000, -0.000000000000000000, -0.000000000000000000 ) ) ;
#29 = ADVANCED_FACE ( 'NONE', ( #126 ), #226, .F. ) ;
#30 = PLANE ( 'NONE',  #67 ) ;
#31 = SHAPE_DEFINITION_REPRESENTATION ( #171, #305 ) ;
#32 = LOCAL_TIME ( 17, 7, 13.00000000000000000, #148 ) ;
#33 = CARTESIAN_POINT ( 'NONE',  ( -3.000000000000000000, 1.555301434917138433E-15, -12.69999999999999929 ) ) ;
#34 = PERSON_AND_ORGANIZATION ( #308, #164 ) ;
#35 = PRODUCT_RELATED_PRODUCT_CATEGORY ( 'detail', '', ( #270 ) ) ;
#36 = CARTESIAN_POINT ( 'NONE',  ( -1.614212418857619014, 0.000000000000000000, 0.000000000000000000 ) ) ;
#37 = CARTESIAN_POINT ( 'NONE',  ( 1.500000000000000444, 6.349999999999999645, 0.000000000000000000 ) ) ;
#38 = CIRCLE ( 'NONE', #80, 12.69999999999999929 ) ;
#39 = CARTESIAN_POINT ( 'NONE',  ( 0.000000000000000000, 0.000000000000000000, 0.000000000000000000 ) ) ;
#40 = APPLICATION_PROTOCOL_DEFINITION ( 'international standard', 'config_control_design', 1994, #264 ) ;
#41 = CIRCLE ( 'NONE', #275, 6.349999999999999645 ) ;
#42 = AXIS2_PLACEMENT_3D ( 'NONE', #6, #162, #232 ) ;
#43 = CC_DESIGN_PERSON_AND_ORGANIZATION_ASSIGNMENT ( #167, #273, ( #141 ) ) ;
#44 = ORIENTED_EDGE ( 'NONE', *, *, #217, .F. ) ;
#45 = APPROVAL_ROLE ( '' ) ;
#46 = APPROVAL_PERSON_ORGANIZATION ( #276, #205, #330 ) ;
#47 = ORIENTED_EDGE ( 'NONE', *, *, #185, .T. ) ;
#48 = APPROVAL_DATE_TIME ( #302, #108 ) ;
#49 = ADVANCED_FACE ( 'NONE', ( #1 ), #175, .F. ) ;
#50 = ORIENTED_EDGE ( 'NONE', *, *, #269, .F. ) ;
#51 = DIRECTION ( 'NONE',  ( 1.000000000000000000, 0.000000000000000000, 0.000000000000000000 ) ) ;
#52 = VERTEX_POINT ( 'NONE', #109 ) ;
#53 = ORIENTED_EDGE ( 'NONE', *, *, #241, .T. ) ;
#54 = DIRECTION ( 'NONE',  ( 1.000000000000000000, 0.000000000000000000, 0.000000000000000000 ) ) ;
#55 = CARTESIAN_POINT ( 'NONE',  ( -1.614212418857619014, 0.000000000000000000, 0.000000000000000000 ) ) ;
#56 = APPROVAL_ROLE ( '' ) ;
#57 = DIRECTION ( 'NONE',  ( -1.000000000000000000, -0.000000000000000000, -0.000000000000000000 ) ) ;
#58 = DIRECTION ( 'NONE',  ( 0.000000000000000000, 0.000000000000000000, 1.000000000000000000 ) ) ;
#59 = LOCAL_TIME ( 17, 7, 13.00000000000000000, #157 ) ;
#60 = DIRECTION ( 'NONE',  ( 0.000000000000000000, 0.000000000000000000, -1.000000000000000000 ) ) ;
#61 = ADVANCED_FACE ( 'NONE', ( #82, #200 ), #84, .F. ) ;
#62 = CARTESIAN_POINT ( 'NONE',  ( 3.000000000000000000, 0.000000000000000000, 0.000000000000000000 ) ) ;
#63 = CARTESIAN_POINT ( 'NONE',  ( -1.500000000000000444, 0.000000000000000000, 0.000000000000000000 ) ) ;
#64 = EDGE_CURVE ( 'NONE', #166, #151, #3, .T. ) ;
#65 = UNCERTAINTY_MEASURE_WITH_UNIT (LENGTH_MEASURE( 1.000000000000000082E-05 ), #10, 'distance_accuracy_value', 'NONE');
#66 = CIRCLE ( 'NONE', #242, 6.349999999999999645 ) ;
#67 = AXIS2_PLACEMENT_3D ( 'NONE', #130, #51, #77 ) ;
#68 =( NAMED_UNIT ( * ) SI_UNIT ( $, .STERADIAN. ) SOLID_ANGLE_UNIT ( ) );
#69 = CC_DESIGN_PERSON_AND_ORGANIZATION_ASSIGNMENT ( #295, #268, ( #270 ) ) ;
#70 = PERSON_AND_ORGANIZATION_ROLE ( 'creator' ) ;
#71 = ORIENTED_EDGE ( 'NONE', *, *, #332, .T. ) ;
#72 = CALENDAR_DATE ( 2020, 22, 12 ) ;
#73 = VECTOR ( 'NONE', #181, 1000.000000000000000 ) ;
#74 = EDGE_LOOP ( 'NONE', ( #274, #223, #174, #272 ) ) ;
#75 = CALENDAR_DATE ( 2020, 22, 12 ) ;
#76 = EDGE_LOOP ( 'NONE', ( #147, #289, #300, #50 ) ) ;
#77 = DIRECTION ( 'NONE',  ( 0.000000000000000000, 0.000000000000000000, -1.000000000000000000 ) ) ;
#78 = ORIENTED_EDGE ( 'NONE', *, *, #194, .F. ) ;
#79 = DIRECTION ( 'NONE',  ( 0.000000000000000000, 0.000000000000000000, -1.000000000000000000 ) ) ;
#80 = AXIS2_PLACEMENT_3D ( 'NONE', #62, #209, #230 ) ;
#81 = CIRCLE ( 'NONE', #153, 6.349999999999999645 ) ;
#82 = FACE_OUTER_BOUND ( 'NONE', #125, .T. ) ;
#83 = DATE_AND_TIME ( #178, #59 ) ;
#84 = PLANE ( 'NONE',  #325 ) ;
#85 = DIRECTION ( 'NONE',  ( -1.000000000000000000, -0.000000000000000000, -0.000000000000000000 ) ) ;
#86 = COORDINATED_UNIVERSAL_TIME_OFFSET ( 8, 0, .AHEAD. ) ;
#87 = EDGE_CURVE ( 'NONE', #303, #166, #307, .T. ) ;
#88 = CARTESIAN_POINT ( 'NONE',  ( -1.614212418857619014, 0.000000000000000000, 6.349999999999999645 ) ) ;
#89 = ORIENTED_EDGE ( 'NONE', *, *, #18, .F. ) ;
#90 = CIRCLE ( 'NONE', #297, 12.69999999999999929 ) ;
#91 = LINE ( 'NONE', #133, #182 ) ;
#92 = CYLINDRICAL_SURFACE ( 'NONE', #42, 6.349999999999999645 ) ;
#93 = CARTESIAN_POINT ( 'NONE',  ( 3.000000000000000000, 0.000000000000000000, 0.000000000000000000 ) ) ;
#94 = ADVANCED_FACE ( 'NONE', ( #252, #179 ), #30, .F. ) ;
#95 = AXIS2_PLACEMENT_3D ( 'NONE', #304, #278, #105 ) ;
#96 = CIRCLE ( 'NONE', #208, 6.349999999999999645 ) ;
#97 = DIRECTION ( 'NONE',  ( -1.000000000000000000, -0.000000000000000000, -0.000000000000000000 ) ) ;
#98 = CC_DESIGN_PERSON_AND_ORGANIZATION_ASSIGNMENT ( #229, #201, ( #176 ) ) ;
#99 = AXIS2_PLACEMENT_3D ( 'NONE', #36, #286, #58 ) ;
#100 = ORIENTED_EDGE ( 'NONE', *, *, #241, .F. ) ;
#101 = COORDINATED_UNIVERSAL_TIME_OFFSET ( 8, 0, .AHEAD. ) ;
#102 = ORIENTED_EDGE ( 'NONE', *, *, #18, .T. ) ;
#103 = PERSON_AND_ORGANIZATION_ROLE ( 'design_supplier' ) ;
#104 = ORIENTED_EDGE ( 'NONE', *, *, #225, .T. ) ;
#105 = DIRECTION ( 'NONE',  ( 0.000000000000000000, 0.000000000000000000, 1.000000000000000000 ) ) ;
#106 = VERTEX_POINT ( 'NONE', #177 ) ;
#107 = ORIENTED_EDGE ( 'NONE', *, *, #64, .T. ) ;
#108 = APPROVAL ( #248, 'UNSPECIFIED' ) ;
#109 = CARTESIAN_POINT ( 'NONE',  ( 1.500000000000000888, 7.776507174585692163E-16, -6.349999999999999645 ) ) ;
#110 = CARTESIAN_POINT ( 'NONE',  ( 1.500000000000000888, 0.000000000000000000, 6.349999999999999645 ) ) ;
#111 = FACE_OUTER_BOUND ( 'NONE', #279, .T. ) ;
#112 = FACE_OUTER_BOUND ( 'NONE', #197, .T. ) ;
#113 = DIRECTION ( 'NONE',  ( 0.000000000000000000, 0.000000000000000000, -1.000000000000000000 ) ) ;
#114 = DIRECTION ( 'NONE',  ( -1.000000000000000000, -0.000000000000000000, -0.000000000000000000 ) ) ;
#115 = DIRECTION ( 'NONE',  ( 0.000000000000000000, 0.000000000000000000, 1.000000000000000000 ) ) ;
#116 = DIRECTION ( 'NONE',  ( 1.000000000000000000, 0.000000000000000000, 0.000000000000000000 ) ) ;
#117 = CIRCLE ( 'NONE', #267, 6.349999999999999645 ) ;
#118 = DIRECTION ( 'NONE',  ( -1.000000000000000000, -0.000000000000000000, -0.000000000000000000 ) ) ;
#119 = EDGE_CURVE ( 'NONE', #22, #172, #66, .T. ) ;
#120 = ADVANCED_FACE ( 'NONE', ( #283 ), #227, .F. ) ;
#121 = VERTEX_POINT ( 'NONE', #313 ) ;
#122 = APPROVAL_DATE_TIME ( #299, #205 ) ;
#123 = EDGE_LOOP ( 'NONE', ( #331, #102, #220, #53 ) ) ;
#124 = APPROVAL_STATUS ( 'not_yet_approved' ) ;
#125 = EDGE_LOOP ( 'NONE', ( #298, #277 ) ) ;
#126 = FACE_OUTER_BOUND ( 'NONE', #25, .T. ) ;
#127 = ORIENTED_EDGE ( 'NONE', *, *, #87, .T. ) ;
#128 = DIRECTION ( 'NONE',  ( 0.000000000000000000, 0.000000000000000000, 1.000000000000000000 ) ) ;
#129 = CARTESIAN_POINT ( 'NONE',  ( -1.614212418857619014, 0.000000000000000000, 12.69999999999999929 ) ) ;
#130 = CARTESIAN_POINT ( 'NONE',  ( -3.000000000000000000, 6.349999999999999645, 0.000000000000000000 ) ) ;
#131 = AXIS2_PLACEMENT_3D ( 'NONE', #203, #285, #158 ) ;
#132 = CIRCLE ( 'NONE', #214, 6.349999999999999645 ) ;
#133 = CARTESIAN_POINT ( 'NONE',  ( -1.614212418857619014, 0.000000000000000000, 6.349999999999999645 ) ) ;
#134 = APPROVAL_DATE_TIME ( #83, #189 ) ;
#135 = CARTESIAN_POINT ( 'NONE',  ( -3.000000000000000000, 0.000000000000000000, 12.69999999999999929 ) ) ;
#136 = DIRECTION ( 'NONE',  ( 0.000000000000000000, 0.000000000000000000, 1.000000000000000000 ) ) ;
#137 = CARTESIAN_POINT ( 'NONE',  ( -1.614212418857619014, 7.776507174585692163E-16, -6.349999999999999645 ) ) ;
#138 = CIRCLE ( 'NONE', #290, 6.349999999999999645 ) ;
#139 = DIRECTION ( 'NONE',  ( -0.000000000000000000, 0.000000000000000000, 1.000000000000000000 ) ) ;
#140 = CARTESIAN_POINT ( 'NONE',  ( -1.614212418857619014, 7.776507174585692163E-16, -6.349999999999999645 ) ) ;
#141 = PRODUCT_DEFINITION ( 'UNKNOWN', '', #195, #143 ) ;
#142 = CIRCLE ( 'NONE', #19, 6.349999999999999645 ) ;
#143 = DESIGN_CONTEXT ( 'detailed design', #264, 'design' ) ;
#144 = CC_DESIGN_PERSON_AND_ORGANIZATION_ASSIGNMENT ( #219, #103, ( #195 ) ) ;
#145 = ORIENTED_EDGE ( 'NONE', *, *, #217, .T. ) ;
#146 = DATE_TIME_ROLE ( 'creation_date' ) ;
#147 = ORIENTED_EDGE ( 'NONE', *, *, #194, .T. ) ;
#148 = COORDINATED_UNIVERSAL_TIME_OFFSET ( 8, 0, .AHEAD. ) ;
#149 = EDGE_LOOP ( 'NONE', ( #100, #282 ) ) ;
#150 = CARTESIAN_POINT ( 'NONE',  ( -1.500000000000000444, 0.000000000000000000, 0.000000000000000000 ) ) ;
#151 = VERTEX_POINT ( 'NONE', #135 ) ;
#152 = CARTESIAN_POINT ( 'NONE',  ( 3.000000000000000888, 0.000000000000000000, 0.000000000000000000 ) ) ;
#153 = AXIS2_PLACEMENT_3D ( 'NONE', #315, #11, #318 ) ;
#154 = ORIENTED_EDGE ( 'NONE', *, *, #246, .F. ) ;
#155 = CARTESIAN_POINT ( 'NONE',  ( -1.614212418857619014, 0.000000000000000000, 0.000000000000000000 ) ) ;
#156 = ORIENTED_EDGE ( 'NONE', *, *, #296, .T. ) ;
#157 = COORDINATED_UNIVERSAL_TIME_OFFSET ( 8, 0, .AHEAD. ) ;
#158 = DIRECTION ( 'NONE',  ( 0.000000000000000000, 0.000000000000000000, 1.000000000000000000 ) ) ;
#159 = DIRECTION ( 'NONE',  ( -1.000000000000000000, -0.000000000000000000, -0.000000000000000000 ) ) ;
#160 = CC_DESIGN_APPROVAL ( #205, ( #195 ) ) ;
#161 = FACE_OUTER_BOUND ( 'NONE', #20, .T. ) ;
#162 = DIRECTION ( 'NONE',  ( -1.000000000000000000, -0.000000000000000000, -0.000000000000000000 ) ) ;
#163 = CARTESIAN_POINT ( 'NONE',  ( -1.614212418857619014, 0.000000000000000000, 0.000000000000000000 ) ) ;
#164 = ORGANIZATION ( 'UNSPECIFIED', 'UNSPECIFIED', '' ) ;
#165 = PERSON_AND_ORGANIZATION ( #308, #164 ) ;
#166 = VERTEX_POINT ( 'NONE', #33 ) ;
#167 = PERSON_AND_ORGANIZATION ( #308, #164 ) ;
#168 = VERTEX_POINT ( 'NONE', #9 ) ;
#169 = DIRECTION ( 'NONE',  ( 0.000000000000000000, 0.000000000000000000, 1.000000000000000000 ) ) ;
#170 = EDGE_CURVE ( 'NONE', #22, #27, #91, .T. ) ;
#171 = PRODUCT_DEFINITION_SHAPE ( 'NONE', 'NONE',  #141 ) ;
#172 = VERTEX_POINT ( 'NONE', #262 ) ;
#173 = ORIENTED_EDGE ( 'NONE', *, *, #14, .T. ) ;
#174 = ORIENTED_EDGE ( 'NONE', *, *, #170, .T. ) ;
#175 = CYLINDRICAL_SURFACE ( 'NONE', #202, 6.349999999999999645 ) ;
#176 = SECURITY_CLASSIFICATION ( '', '', #216 ) ;
#177 = CARTESIAN_POINT ( 'NONE',  ( -2.999999999999999556, 0.000000000000000000, 6.349999999999999645 ) ) ;
#178 = CALENDAR_DATE ( 2020, 22, 12 ) ;
#179 = FACE_OUTER_BOUND ( 'NONE', #243, .T. ) ;
#180 = DIRECTION ( 'NONE',  ( 1.000000000000000000, 0.000000000000000000, 0.000000000000000000 ) ) ;
#181 = DIRECTION ( 'NONE',  ( -1.000000000000000000, -0.000000000000000000, -0.000000000000000000 ) ) ;
#182 = VECTOR ( 'NONE', #85, 1000.000000000000000 ) ;
#183 = CARTESIAN_POINT ( 'NONE',  ( 1.500000000000000888, 0.000000000000000000, 0.000000000000000000 ) ) ;
#184 = CARTESIAN_POINT ( 'NONE',  ( 3.000000000000000888, 0.000000000000000000, 0.000000000000000000 ) ) ;
#185 = EDGE_CURVE ( 'NONE', #303, #251, #38, .T. ) ;
#186 = CARTESIAN_POINT ( 'NONE',  ( 3.000000000000000000, 0.000000000000000000, 12.69999999999999929 ) ) ;
#187 = CARTESIAN_POINT ( 'NONE',  ( 3.000000000000000000, 1.555301434917138433E-15, -12.69999999999999929 ) ) ;
#188 = VECTOR ( 'NONE', #250, 1000.000000000000000 ) ;
#189 = APPROVAL ( #258, 'UNSPECIFIED' ) ;
#190 = LOCAL_TIME ( 17, 7, 13.00000000000000000, #86 ) ;
#191 = ORIENTED_EDGE ( 'NONE', *, *, #119, .T. ) ;
#192 = DATE_AND_TIME ( #72, #317 ) ;
#193 = EDGE_LOOP ( 'NONE', ( #78, #89 ) ) ;
#194 = EDGE_CURVE ( 'NONE', #121, #334, #41, .T. ) ;
#195 = PRODUCT_DEFINITION_FORMATION_WITH_SPECIFIED_SOURCE ( 'ANY', '', #270, .NOT_KNOWN. ) ;
#196 = DIRECTION ( 'NONE',  ( -0.000000000000000000, 0.000000000000000000, 1.000000000000000000 ) ) ;
#197 = EDGE_LOOP ( 'NONE', ( #154, #44 ) ) ;
#198 = DIRECTION ( 'NONE',  ( 0.000000000000000000, 0.000000000000000000, 1.000000000000000000 ) ) ;
#199 = CC_DESIGN_DATE_AND_TIME_ASSIGNMENT ( #192, #146, ( #141 ) ) ;
#200 = FACE_BOUND ( 'NONE', #249, .T. ) ;
#201 = PERSON_AND_ORGANIZATION_ROLE ( 'classification_officer' ) ;
#202 = AXIS2_PLACEMENT_3D ( 'NONE', #155, #57, #128 ) ;
#203 = CARTESIAN_POINT ( 'NONE',  ( -1.614212418857619014, 0.000000000000000000, 0.000000000000000000 ) ) ;
#204 = DIRECTION ( 'NONE',  ( -1.000000000000000000, -0.000000000000000000, -0.000000000000000000 ) ) ;
#205 = APPROVAL ( #124, 'UNSPECIFIED' ) ;
#206 = DIRECTION ( 'NONE',  ( -1.000000000000000000, 0.000000000000000000, -0.000000000000000000 ) ) ;
#207 = LINE ( 'NONE', #137, #17 ) ;
#208 = AXIS2_PLACEMENT_3D ( 'NONE', #183, #204, #136 ) ;
#209 = DIRECTION ( 'NONE',  ( -1.000000000000000000, -0.000000000000000000, -0.000000000000000000 ) ) ;
#210 = PLANE ( 'NONE',  #236 ) ;
#211 = MANIFOLD_SOLID_BREP ( 'Ðý×', #16 ) ;
#212 = AXIS2_PLACEMENT_3D ( 'NONE', #39, #13, #116 ) ;
#213 = ADVANCED_FACE ( 'NONE', ( #161 ), #7, .T. ) ;
#214 = AXIS2_PLACEMENT_3D ( 'NONE', #261, #291, #257 ) ;
#215 = ORIENTED_EDGE ( 'NONE', *, *, #64, .F. ) ;
#216 = SECURITY_CLASSIFICATION_LEVEL ( 'unclassified' ) ;
#217 = EDGE_CURVE ( 'NONE', #52, #27, #96, .T. ) ;
#218 = ORIENTED_EDGE ( 'NONE', *, *, #87, .F. ) ;
#219 = PERSON_AND_ORGANIZATION ( #308, #164 ) ;
#220 = ORIENTED_EDGE ( 'NONE', *, *, #269, .T. ) ;
#221 = LINE ( 'NONE', #129, #235 ) ;
#222 = CC_DESIGN_APPROVAL ( #189, ( #176 ) ) ;
#223 = ORIENTED_EDGE ( 'NONE', *, *, #119, .F. ) ;
#224 = CARTESIAN_POINT ( 'NONE',  ( 3.000000000000000000, 12.69999999999999929, 0.000000000000000000 ) ) ;
#225 = EDGE_CURVE ( 'NONE', #151, #166, #90, .T. ) ;
#226 = CYLINDRICAL_SURFACE ( 'NONE', #293, 6.349999999999999645 ) ;
#227 = CYLINDRICAL_SURFACE ( 'NONE', #131, 6.349999999999999645 ) ;
#228 = FACE_OUTER_BOUND ( 'NONE', #123, .T. ) ;
#229 = PERSON_AND_ORGANIZATION ( #308, #164 ) ;
#230 = DIRECTION ( 'NONE',  ( 0.000000000000000000, 0.000000000000000000, 1.000000000000000000 ) ) ;
#231 = CC_DESIGN_DATE_AND_TIME_ASSIGNMENT ( #256, #311, ( #176 ) ) ;
#232 = DIRECTION ( 'NONE',  ( 0.000000000000000000, 0.000000000000000000, 1.000000000000000000 ) ) ;
#233 = CARTESIAN_POINT ( 'NONE',  ( -3.000000000000000000, 0.000000000000000000, 0.000000000000000000 ) ) ;
#234 = CYLINDRICAL_SURFACE ( 'NONE', #294, 12.69999999999999929 ) ;
#235 = VECTOR ( 'NONE', #26, 1000.000000000000000 ) ;
#236 = AXIS2_PLACEMENT_3D ( 'NONE', #288, #5, #60 ) ;
#237 = FACE_OUTER_BOUND ( 'NONE', #193, .T. ) ;
#238 = DIRECTION ( 'NONE',  ( -1.000000000000000000, -0.000000000000000000, -0.000000000000000000 ) ) ;
#239 = APPLICATION_PROTOCOL_DEFINITION ( 'international standard', 'config_control_design', 1994, #287 ) ;
#240 =( NAMED_UNIT ( * ) PLANE_ANGLE_UNIT ( ) SI_UNIT ( $, .RADIAN. ) );
#241 = EDGE_CURVE ( 'NONE', #106, #168, #132, .T. ) ;
#242 = AXIS2_PLACEMENT_3D ( 'NONE', #152, #28, #198 ) ;
#243 = EDGE_LOOP ( 'NONE', ( #104, #107 ) ) ;
#244 = VECTOR ( 'NONE', #118, 1000.000000000000000 ) ;
#245 = CIRCLE ( 'NONE', #322, 12.69999999999999929 ) ;
#246 = EDGE_CURVE ( 'NONE', #27, #52, #81, .T. ) ;
#247 = ORIENTED_EDGE ( 'NONE', *, *, #296, .F. ) ;
#248 = APPROVAL_STATUS ( 'not_yet_approved' ) ;
#249 = EDGE_LOOP ( 'NONE', ( #191, #156 ) ) ;
#250 = DIRECTION ( 'NONE',  ( -1.000000000000000000, -0.000000000000000000, -0.000000000000000000 ) ) ;
#251 = VERTEX_POINT ( 'NONE', #186 ) ;
#252 = FACE_BOUND ( 'NONE', #149, .T. ) ;
#253 = AXIS2_PLACEMENT_3D ( 'NONE', #37, #206, #139 ) ;
#254 = ORIENTED_EDGE ( 'NONE', *, *, #225, .F. ) ;
#255 = CARTESIAN_POINT ( 'NONE',  ( 3.000000000000000888, 0.000000000000000000, 6.349999999999999645 ) ) ;
#256 = DATE_AND_TIME ( #284, #190 ) ;
#257 = DIRECTION ( 'NONE',  ( 0.000000000000000000, 0.000000000000000000, 1.000000000000000000 ) ) ;
#258 = APPROVAL_STATUS ( 'not_yet_approved' ) ;
#259 = ADVANCED_FACE ( 'NONE', ( #228 ), #92, .F. ) ;
#260 = CC_DESIGN_APPROVAL ( #108, ( #141 ) ) ;
#261 = CARTESIAN_POINT ( 'NONE',  ( -2.999999999999999556, 0.000000000000000000, 0.000000000000000000 ) ) ;
#262 = CARTESIAN_POINT ( 'NONE',  ( 3.000000000000000888, 7.776507174585692163E-16, -6.349999999999999645 ) ) ;
#263 = MECHANICAL_CONTEXT ( 'NONE', #287, 'mechanical' ) ;
#264 = APPLICATION_CONTEXT ( 'configuration controlled 3d designs of mechanical parts and assemblies' ) ;
#265 = ADVANCED_FACE ( 'NONE', ( #112 ), #266, .F. ) ;
#266 = PLANE ( 'NONE',  #253 ) ;
#267 = AXIS2_PLACEMENT_3D ( 'NONE', #184, #114, #320 ) ;
#268 = PERSON_AND_ORGANIZATION_ROLE ( 'design_owner' ) ;
#269 = EDGE_CURVE ( 'NONE', #121, #106, #314, .T. ) ;
#270 = PRODUCT ( 'Q-AZHWP-12.7-488-M', 'Q-AZHWP-12.7-488-M', '', ( #263 ) ) ;
#271 = CC_DESIGN_SECURITY_CLASSIFICATION ( #176, ( #195 ) ) ;
#272 = ORIENTED_EDGE ( 'NONE', *, *, #246, .T. ) ;
#273 = PERSON_AND_ORGANIZATION_ROLE ( 'creator' ) ;
#274 = ORIENTED_EDGE ( 'NONE', *, *, #332, .F. ) ;
#275 = AXIS2_PLACEMENT_3D ( 'NONE', #63, #180, #113 ) ;
#276 = PERSON_AND_ORGANIZATION ( #308, #164 ) ;
#277 = ORIENTED_EDGE ( 'NONE', *, *, #185, .F. ) ;
#278 = DIRECTION ( 'NONE',  ( -1.000000000000000000, -0.000000000000000000, -0.000000000000000000 ) ) ;
#279 = EDGE_LOOP ( 'NONE', ( #306, #127, #254, #327 ) ) ;
#280 = DIRECTION ( 'NONE',  ( -1.000000000000000000, 0.000000000000000000, -0.000000000000000000 ) ) ;
#281 = ADVANCED_FACE ( 'NONE', ( #237 ), #210, .F. ) ;
#282 = ORIENTED_EDGE ( 'NONE', *, *, #24, .F. ) ;
#283 = FACE_OUTER_BOUND ( 'NONE', #76, .T. ) ;
#284 = CALENDAR_DATE ( 2020, 22, 12 ) ;
#285 = DIRECTION ( 'NONE',  ( -1.000000000000000000, -0.000000000000000000, -0.000000000000000000 ) ) ;
#286 = DIRECTION ( 'NONE',  ( -1.000000000000000000, -0.000000000000000000, -0.000000000000000000 ) ) ;
#287 = APPLICATION_CONTEXT ( 'configuration controlled 3d designs of mechanical parts and assemblies' ) ;
#288 = CARTESIAN_POINT ( 'NONE',  ( -1.500000000000000444, 6.349999999999999645, 0.000000000000000000 ) ) ;
#289 = ORIENTED_EDGE ( 'NONE', *, *, #323, .T. ) ;
#290 = AXIS2_PLACEMENT_3D ( 'NONE', #150, #54, #79 ) ;
#291 = DIRECTION ( 'NONE',  ( -1.000000000000000000, -0.000000000000000000, -0.000000000000000000 ) ) ;
#292 = ADVANCED_FACE ( 'NONE', ( #111 ), #234, .T. ) ;
#293 = AXIS2_PLACEMENT_3D ( 'NONE', #55, #333, #335 ) ;
#294 = AXIS2_PLACEMENT_3D ( 'NONE', #163, #238, #8 ) ;
#295 = PERSON_AND_ORGANIZATION ( #308, #164 ) ;
#296 = EDGE_CURVE ( 'NONE', #172, #22, #117, .T. ) ;
#297 = AXIS2_PLACEMENT_3D ( 'NONE', #233, #159, #115 ) ;
#298 = ORIENTED_EDGE ( 'NONE', *, *, #324, .F. ) ;
#299 = DATE_AND_TIME ( #21, #32 ) ;
#300 = ORIENTED_EDGE ( 'NONE', *, *, #24, .T. ) ;
#301 = APPROVAL_PERSON_ORGANIZATION ( #165, #108, #45 ) ;
#302 = DATE_AND_TIME ( #75, #326 ) ;
#303 = VERTEX_POINT ( 'NONE', #187 ) ;
#304 = CARTESIAN_POINT ( 'NONE',  ( -3.000000000000000000, 0.000000000000000000, 0.000000000000000000 ) ) ;
#305 = ADVANCED_BREP_SHAPE_REPRESENTATION ( 'Q-AZHWP-12.7-488-M', ( #211, #212 ), #310 ) ;
#306 = ORIENTED_EDGE ( 'NONE', *, *, #324, .T. ) ;
#307 = LINE ( 'NONE', #309, #188 ) ;
#308 = PERSON ( 'UNSPECIFIED', 'UNSPECIFIED', 'UNSPECIFIED', ('UNSPECIFIED'), ('UNSPECIFIED'), ('UNSPECIFIED') ) ;
#309 = CARTESIAN_POINT ( 'NONE',  ( -1.614212418857619014, 1.555301434917138433E-15, -12.69999999999999929 ) ) ;
#310 =( GEOMETRIC_REPRESENTATION_CONTEXT ( 3 ) GLOBAL_UNCERTAINTY_ASSIGNED_CONTEXT ( ( #65 ) ) GLOBAL_UNIT_ASSIGNED_CONTEXT ( ( #10, #240, #68 ) ) REPRESENTATION_CONTEXT ( 'NONE', 'WORKASPACE' ) );
#311 = DATE_TIME_ROLE ( 'classification_date' ) ;
#312 = DIRECTION ( 'NONE',  ( -1.000000000000000000, -0.000000000000000000, -0.000000000000000000 ) ) ;
#313 = CARTESIAN_POINT ( 'NONE',  ( -1.500000000000000444, 0.000000000000000000, 6.349999999999999645 ) ) ;
#314 = LINE ( 'NONE', #88, #73 ) ;
#315 = CARTESIAN_POINT ( 'NONE',  ( 1.500000000000000888, 0.000000000000000000, 0.000000000000000000 ) ) ;
#316 = CARTESIAN_POINT ( 'NONE',  ( -1.500000000000000444, 7.776507174585692163E-16, -6.349999999999999645 ) ) ;
#317 = LOCAL_TIME ( 17, 7, 13.00000000000000000, #101 ) ;
#318 = DIRECTION ( 'NONE',  ( 0.000000000000000000, 0.000000000000000000, 1.000000000000000000 ) ) ;
#319 = CC_DESIGN_PERSON_AND_ORGANIZATION_ASSIGNMENT ( #23, #70, ( #195 ) ) ;
#320 = DIRECTION ( 'NONE',  ( 0.000000000000000000, 0.000000000000000000, 1.000000000000000000 ) ) ;
#321 = DIRECTION ( 'NONE',  ( -1.000000000000000000, -0.000000000000000000, -0.000000000000000000 ) ) ;
#322 = AXIS2_PLACEMENT_3D ( 'NONE', #93, #97, #15 ) ;
#323 = EDGE_CURVE ( 'NONE', #334, #168, #207, .T. ) ;
#324 = EDGE_CURVE ( 'NONE', #251, #303, #245, .T. ) ;
#325 = AXIS2_PLACEMENT_3D ( 'NONE', #224, #280, #196 ) ;
#326 = LOCAL_TIME ( 17, 7, 13.00000000000000000, #328 ) ;
#327 = ORIENTED_EDGE ( 'NONE', *, *, #14, .F. ) ;
#328 = COORDINATED_UNIVERSAL_TIME_OFFSET ( 8, 0, .AHEAD. ) ;
#329 = ORIENTED_EDGE ( 'NONE', *, *, #170, .F. ) ;
#330 = APPROVAL_ROLE ( '' ) ;
#331 = ORIENTED_EDGE ( 'NONE', *, *, #323, .F. ) ;
#332 = EDGE_CURVE ( 'NONE', #172, #52, #12, .T. ) ;
#333 = DIRECTION ( 'NONE',  ( -1.000000000000000000, -0.000000000000000000, -0.000000000000000000 ) ) ;
#334 = VERTEX_POINT ( 'NONE', #316 ) ;
#335 = DIRECTION ( 'NONE',  ( 0.000000000000000000, 0.000000000000000000, 1.000000000000000000 ) ) ;
ENDSEC;
END-ISO-10303-21;
